999
"DXF R12 Output" (www.mydxf.blogspot.com)
 0 
SECTION
 2 
HEADER
 9 
$ACADVER
 1 
AC1009
 9 
$EXTMIN
 10 
 0 
 20 
 0 
 9 
$EXTMAX
 10 
 8.5 
 20 
 11 
 0 
ENDSEC
 0 
SECTION
 2 
ENTITIES
0
LINE
8
Layer 1
10
0.793749
20
297.793749
11
-0.793749
21
296.206251
0
LINE
8
Layer 1
10
0.000000
20
298.322915
11
0.000000
21
295.677085
0
LINE
8
Layer 1
10
2.116664
20
295.941668
11
1.058332
21
294.883336
0
LINE
8
Layer 1
10
1.587498
20
296.470834
11
0.529166
21
295.412502
0
LINE
8
Layer 1
10
1.058332
20
297.000000
11
0.000000
21
295.941668
0
LINE
8
0
10
104.777300
20
104.030665
11
39.777988
21
104.030665
0
LINE
8
0
10
39.777988
20
84.030836
11
39.777988
21
104.030665
0
LINE
8
0
10
104.777300
20
84.030836
11
39.777988
21
84.030836
0
LINE
8
0
10
114.016009
20
97.857943
11
138.890515
21
37.805540
0
LINE
8
0
10
138.890515
20
37.805540
11
120.412832
21
30.151164
0
LINE
8
0
10
95.538855
20
90.203557
11
120.412832
21
30.151164
0
LINE
8
0
10
95.538855
20
97.857943
11
120.412832
21
157.908759
0
LINE
8
0
10
120.412832
20
157.908759
11
138.890515
21
150.255167
0
LINE
8
0
10
114.016009
20
90.203557
11
138.890515
21
150.255167
0
LINE
8
0
10
65.802207
20
99.029842
11
65.664166
21
99.710442
0
LINE
8
0
10
65.664166
20
99.710442
11
65.289009
21
100.266114
0
LINE
8
0
10
65.289009
20
100.266114
11
64.732952
21
100.640699
0
LINE
8
0
10
64.732952
20
100.640699
11
64.052211
21
100.778040
0
LINE
8
0
10
64.052211
20
100.778040
11
63.371469
21
100.640699
0
LINE
8
0
10
63.371469
20
100.640699
11
62.815412
21
100.266114
0
LINE
8
0
10
62.815412
20
100.266114
11
62.440255
21
99.710442
0
LINE
8
0
10
62.440255
20
99.710442
11
62.302214
21
99.029842
0
LINE
8
0
10
62.302214
20
99.029842
11
62.440255
21
98.349242
0
LINE
8
0
10
62.440255
20
98.349242
11
62.815412
21
97.793571
0
LINE
8
0
10
62.815412
20
97.793571
11
63.371469
21
97.418986
0
LINE
8
0
10
63.371469
20
97.418986
11
64.052211
21
97.281645
0
LINE
8
0
10
64.052211
20
97.281645
11
64.732952
21
97.418986
0
LINE
8
0
10
64.732952
20
97.418986
11
65.289009
21
97.793571
0
LINE
8
0
10
65.289009
20
97.793571
11
65.664166
21
98.349242
0
LINE
8
0
10
65.664166
20
98.349242
11
65.802207
21
99.029842
0
LINE
8
0
10
65.802207
20
99.029842
11
65.802207
21
99.029842
0
LINE
8
0
10
59.135549
20
99.029842
11
58.997546
21
99.710485
0
LINE
8
0
10
58.997546
20
99.710485
11
58.622398
21
100.266200
0
LINE
8
0
10
58.622398
20
100.266200
11
58.066326
21
100.640818
0
LINE
8
0
10
58.066326
20
100.640818
11
57.385552
21
100.778173
0
LINE
8
0
10
57.385552
20
100.778173
11
56.704778
21
100.640818
0
LINE
8
0
10
56.704778
20
100.640818
11
56.148707
21
100.266200
0
LINE
8
0
10
56.148707
20
100.266200
11
55.773558
21
99.710485
0
LINE
8
0
10
55.773558
20
99.710485
11
55.635555
21
99.029842
0
LINE
8
0
10
55.635555
20
99.029842
11
55.773558
21
98.349199
0
LINE
8
0
10
55.773558
20
98.349199
11
56.148707
21
97.793485
0
LINE
8
0
10
56.148707
20
97.793485
11
56.704778
21
97.418866
0
LINE
8
0
10
56.704778
20
97.418866
11
57.385552
21
97.281511
0
LINE
8
0
10
57.385552
20
97.281511
11
58.066326
21
97.418866
0
LINE
8
0
10
58.066326
20
97.418866
11
58.622398
21
97.793485
0
LINE
8
0
10
58.622398
20
97.793485
11
58.997546
21
98.349199
0
LINE
8
0
10
58.997546
20
98.349199
11
59.135549
21
99.029842
0
LINE
8
0
10
59.135549
20
99.029842
11
59.135549
21
99.029842
0
LINE
8
0
10
52.468891
20
99.029842
11
52.234436
21
99.904841
0
LINE
8
0
10
52.234436
20
99.904841
11
51.593892
21
100.545385
0
LINE
8
0
10
51.593892
20
100.545385
11
50.718893
21
100.779840
0
LINE
8
0
10
50.718893
20
100.779840
11
49.843894
21
100.545385
0
LINE
8
0
10
49.843894
20
100.545385
11
49.203350
21
99.904841
0
LINE
8
0
10
49.203350
20
99.904841
11
48.968895
21
99.029842
0
LINE
8
0
10
48.968895
20
99.029842
11
49.203350
21
98.154843
0
LINE
8
0
10
49.203350
20
98.154843
11
49.843894
21
97.514300
0
LINE
8
0
10
49.843894
20
97.514300
11
50.718893
21
97.279844
0
LINE
8
0
10
50.718893
20
97.279844
11
51.593892
21
97.514300
0
LINE
8
0
10
51.593892
20
97.514300
11
52.234436
21
98.154843
0
LINE
8
0
10
52.234436
20
98.154843
11
52.468891
21
99.029842
0
LINE
8
0
10
52.468891
20
99.029842
11
52.468891
21
99.029842
0
LINE
8
0
10
45.802233
20
99.029842
11
45.567777
21
99.904841
0
LINE
8
0
10
45.567777
20
99.904841
11
44.927234
21
100.545385
0
LINE
8
0
10
44.927234
20
100.545385
11
44.052235
21
100.779840
0
LINE
8
0
10
44.052235
20
100.779840
11
43.177236
21
100.545385
0
LINE
8
0
10
43.177236
20
100.545385
11
42.536692
21
99.904841
0
LINE
8
0
10
42.536692
20
99.904841
11
42.302237
21
99.029842
0
LINE
8
0
10
42.302237
20
99.029842
11
42.536692
21
98.154843
0
LINE
8
0
10
42.536692
20
98.154843
11
43.177236
21
97.514300
0
LINE
8
0
10
43.177236
20
97.514300
11
44.052235
21
97.279844
0
LINE
8
0
10
44.052235
20
97.279844
11
44.927234
21
97.514300
0
LINE
8
0
10
44.927234
20
97.514300
11
45.567778
21
98.154843
0
LINE
8
0
10
45.567778
20
98.154843
11
45.802233
21
99.029842
0
LINE
8
0
10
45.802233
20
99.029842
11
45.802233
21
99.029842
0
LINE
8
0
10
65.802207
20
89.029856
11
65.664166
21
89.710456
0
LINE
8
0
10
65.664166
20
89.710456
11
65.289009
21
90.266128
0
LINE
8
0
10
65.289009
20
90.266128
11
64.732952
21
90.640713
0
LINE
8
0
10
64.732952
20
90.640713
11
64.052211
21
90.778054
0
LINE
8
0
10
64.052211
20
90.778054
11
63.371469
21
90.640713
0
LINE
8
0
10
63.371469
20
90.640713
11
62.815412
21
90.266128
0
LINE
8
0
10
62.815412
20
90.266128
11
62.440255
21
89.710456
0
LINE
8
0
10
62.440255
20
89.710456
11
62.302214
21
89.029856
0
LINE
8
0
10
62.302214
20
89.029856
11
62.440255
21
88.349256
0
LINE
8
0
10
62.440255
20
88.349256
11
62.815412
21
87.793585
0
LINE
8
0
10
62.815412
20
87.793585
11
63.371469
21
87.419000
0
LINE
8
0
10
63.371469
20
87.419000
11
64.052211
21
87.281659
0
LINE
8
0
10
64.052211
20
87.281659
11
64.732952
21
87.419000
0
LINE
8
0
10
64.732952
20
87.419000
11
65.289009
21
87.793585
0
LINE
8
0
10
65.289009
20
87.793585
11
65.664166
21
88.349256
0
LINE
8
0
10
65.664166
20
88.349256
11
65.802207
21
89.029856
0
LINE
8
0
10
65.802207
20
89.029856
11
65.802207
21
89.029856
0
LINE
8
0
10
59.135549
20
89.029856
11
58.997546
21
89.710499
0
LINE
8
0
10
58.997546
20
89.710499
11
58.622398
21
90.266214
0
LINE
8
0
10
58.622398
20
90.266214
11
58.066326
21
90.640833
0
LINE
8
0
10
58.066326
20
90.640833
11
57.385552
21
90.778187
0
LINE
8
0
10
57.385552
20
90.778187
11
56.704778
21
90.640833
0
LINE
8
0
10
56.704778
20
90.640833
11
56.148707
21
90.266214
0
LINE
8
0
10
56.148707
20
90.266214
11
55.773558
21
89.710499
0
LINE
8
0
10
55.773558
20
89.710499
11
55.635555
21
89.029856
0
LINE
8
0
10
55.635555
20
89.029856
11
55.773558
21
88.349213
0
LINE
8
0
10
55.773558
20
88.349213
11
56.148707
21
87.793499
0
LINE
8
0
10
56.148707
20
87.793499
11
56.704778
21
87.418880
0
LINE
8
0
10
56.704778
20
87.418880
11
57.385552
21
87.281525
0
LINE
8
0
10
57.385552
20
87.281525
11
58.066326
21
87.418880
0
LINE
8
0
10
58.066326
20
87.418880
11
58.622398
21
87.793499
0
LINE
8
0
10
58.622398
20
87.793499
11
58.997546
21
88.349213
0
LINE
8
0
10
58.997546
20
88.349213
11
59.135549
21
89.029856
0
LINE
8
0
10
59.135549
20
89.029856
11
59.135549
21
89.029856
0
LINE
8
0
10
52.468891
20
89.029856
11
52.234436
21
89.904855
0
LINE
8
0
10
52.234436
20
89.904855
11
51.593892
21
90.545399
0
LINE
8
0
10
51.593892
20
90.545399
11
50.718893
21
90.779854
0
LINE
8
0
10
50.718893
20
90.779854
11
49.843894
21
90.545399
0
LINE
8
0
10
49.843894
20
90.545399
11
49.203350
21
89.904855
0
LINE
8
0
10
49.203350
20
89.904855
11
48.968895
21
89.029856
0
LINE
8
0
10
48.968895
20
89.029856
11
49.203350
21
88.154857
0
LINE
8
0
10
49.203350
20
88.154857
11
49.843894
21
87.514314
0
LINE
8
0
10
49.843894
20
87.514314
11
50.718893
21
87.279858
0
LINE
8
0
10
50.718893
20
87.279858
11
51.593892
21
87.514314
0
LINE
8
0
10
51.593892
20
87.514314
11
52.234436
21
88.154857
0
LINE
8
0
10
52.234436
20
88.154857
11
52.468891
21
89.029856
0
LINE
8
0
10
52.468891
20
89.029856
11
52.468891
21
89.029856
0
LINE
8
0
10
45.802233
20
89.029856
11
45.567777
21
89.904855
0
LINE
8
0
10
45.567777
20
89.904855
11
44.927234
21
90.545399
0
LINE
8
0
10
44.927234
20
90.545399
11
44.052235
21
90.779854
0
LINE
8
0
10
44.052235
20
90.779854
11
43.177236
21
90.545399
0
LINE
8
0
10
43.177236
20
90.545399
11
42.536692
21
89.904855
0
LINE
8
0
10
42.536692
20
89.904855
11
42.302237
21
89.029856
0
LINE
8
0
10
42.302237
20
89.029856
11
42.536692
21
88.154857
0
LINE
8
0
10
42.536692
20
88.154857
11
43.177236
21
87.514314
0
LINE
8
0
10
43.177236
20
87.514314
11
44.052235
21
87.279859
0
LINE
8
0
10
44.052235
20
87.279859
11
44.927234
21
87.514314
0
LINE
8
0
10
44.927234
20
87.514314
11
45.567778
21
88.154857
0
LINE
8
0
10
45.567778
20
88.154857
11
45.802233
21
89.029856
0
LINE
8
0
10
45.802233
20
89.029856
11
45.802233
21
89.029856
0
LINE
8
0
10
117.492606
20
54.491435
11
117.354603
21
55.172078
0
LINE
8
0
10
117.354603
20
55.172078
11
116.979454
21
55.727793
0
LINE
8
0
10
116.979454
20
55.727793
11
116.423383
21
56.102411
0
LINE
8
0
10
116.423383
20
56.102411
11
115.742609
21
56.239766
0
LINE
8
0
10
115.742609
20
56.239766
11
115.061835
21
56.102411
0
LINE
8
0
10
115.061835
20
56.102411
11
114.505763
21
55.727793
0
LINE
8
0
10
114.505763
20
55.727793
11
114.130615
21
55.172078
0
LINE
8
0
10
114.130615
20
55.172078
11
113.992612
21
54.491435
0
LINE
8
0
10
113.992612
20
54.491435
11
114.130615
21
53.810792
0
LINE
8
0
10
114.130615
20
53.810792
11
114.505763
21
53.255077
0
LINE
8
0
10
114.505763
20
53.255077
11
115.061835
21
52.880459
0
LINE
8
0
10
115.061835
20
52.880459
11
115.742609
21
52.743104
0
LINE
8
0
10
115.742609
20
52.743104
11
116.423383
21
52.880459
0
LINE
8
0
10
116.423383
20
52.880459
11
116.979454
21
53.255077
0
LINE
8
0
10
116.979454
20
53.255077
11
117.354603
21
53.810792
0
LINE
8
0
10
117.354603
20
53.810792
11
117.492606
21
54.491435
0
LINE
8
0
10
117.492606
20
54.491435
11
117.492606
21
54.491435
0
LINE
8
0
10
120.043826
20
48.332247
11
119.809370
21
49.207246
0
LINE
8
0
10
119.809370
20
49.207246
11
119.168827
21
49.847789
0
LINE
8
0
10
119.168827
20
49.847789
11
118.293828
21
50.082245
0
LINE
8
0
10
118.293828
20
50.082245
11
117.418829
21
49.847789
0
LINE
8
0
10
117.418829
20
49.847789
11
116.778285
21
49.207246
0
LINE
8
0
10
116.778285
20
49.207246
11
116.543830
21
48.332247
0
LINE
8
0
10
116.543830
20
48.332247
11
116.778285
21
47.457248
0
LINE
8
0
10
116.778285
20
47.457248
11
117.418829
21
46.816704
0
LINE
8
0
10
117.418829
20
46.816704
11
118.293828
21
46.582249
0
LINE
8
0
10
118.293828
20
46.582249
11
119.168827
21
46.816704
0
LINE
8
0
10
119.168827
20
46.816704
11
119.809370
21
47.457248
0
LINE
8
0
10
119.809370
20
47.457248
11
120.043826
21
48.332247
0
LINE
8
0
10
120.043826
20
48.332247
11
120.043826
21
48.332247
0
LINE
8
0
10
129.282609
20
52.159075
11
129.048154
21
53.034074
0
LINE
8
0
10
129.048154
20
53.034074
11
128.407610
21
53.674617
0
LINE
8
0
10
128.407610
20
53.674617
11
127.532611
21
53.909073
0
LINE
8
0
10
127.532611
20
53.909073
11
126.657612
21
53.674617
0
LINE
8
0
10
126.657612
20
53.674617
11
126.017068
21
53.034074
0
LINE
8
0
10
126.017068
20
53.034074
11
125.782613
21
52.159075
0
LINE
8
0
10
125.782613
20
52.159075
11
126.017069
21
51.284076
0
LINE
8
0
10
126.017069
20
51.284076
11
126.657612
21
50.643532
0
LINE
8
0
10
126.657612
20
50.643532
11
127.532611
21
50.409077
0
LINE
8
0
10
127.532611
20
50.409077
11
128.407610
21
50.643532
0
LINE
8
0
10
128.407610
20
50.643532
11
129.048154
21
51.284076
0
LINE
8
0
10
129.048154
20
51.284076
11
129.282609
21
52.159075
0
LINE
8
0
10
129.282609
20
52.159075
11
129.282609
21
52.159075
0
LINE
8
0
10
126.731389
20
58.318265
11
126.593347
21
58.998866
0
LINE
8
0
10
126.593347
20
58.998866
11
126.218191
21
59.554537
0
LINE
8
0
10
126.218191
20
59.554537
11
125.662134
21
59.929122
0
LINE
8
0
10
125.662134
20
59.929122
11
124.981392
21
60.066463
0
LINE
8
0
10
124.981392
20
60.066463
11
124.300650
21
59.929122
0
LINE
8
0
10
124.300650
20
59.929122
11
123.744593
21
59.554537
0
LINE
8
0
10
123.744593
20
59.554537
11
123.369436
21
58.998866
0
LINE
8
0
10
123.369436
20
58.998866
11
123.231395
21
58.318265
0
LINE
8
0
10
123.231395
20
58.318265
11
123.369436
21
57.637665
0
LINE
8
0
10
123.369436
20
57.637665
11
123.744593
21
57.081994
0
LINE
8
0
10
123.744593
20
57.081994
11
124.300650
21
56.707409
0
LINE
8
0
10
124.300650
20
56.707409
11
124.981392
21
56.570068
0
LINE
8
0
10
124.981392
20
56.570068
11
125.662134
21
56.707409
0
LINE
8
0
10
125.662134
20
56.707409
11
126.218191
21
57.081994
0
LINE
8
0
10
126.218191
20
57.081994
11
126.593347
21
57.637665
0
LINE
8
0
10
126.593347
20
57.637665
11
126.731389
21
58.318265
0
LINE
8
0
10
126.731389
20
58.318265
11
126.731389
21
58.318265
0
LINE
8
0
10
131.833830
20
45.999887
11
131.599374
21
46.874886
0
LINE
8
0
10
131.599374
20
46.874886
11
130.958830
21
47.515429
0
LINE
8
0
10
130.958830
20
47.515429
11
130.083831
21
47.749885
0
LINE
8
0
10
130.083831
20
47.749885
11
129.208832
21
47.515429
0
LINE
8
0
10
129.208832
20
47.515429
11
128.568289
21
46.874886
0
LINE
8
0
10
128.568289
20
46.874886
11
128.333834
21
45.999887
0
LINE
8
0
10
128.333834
20
45.999887
11
128.568289
21
45.124888
0
LINE
8
0
10
128.568289
20
45.124888
11
129.208833
21
44.484344
0
LINE
8
0
10
129.208833
20
44.484344
11
130.083832
21
44.249889
0
LINE
8
0
10
130.083832
20
44.249889
11
130.958830
21
44.484344
0
LINE
8
0
10
130.958830
20
44.484344
11
131.599374
21
45.124888
0
LINE
8
0
10
131.599374
20
45.124888
11
131.833829
21
45.999887
0
LINE
8
0
10
131.833829
20
45.999887
11
131.833830
21
45.999887
0
LINE
8
0
10
122.595046
20
42.173056
11
122.360591
21
43.048055
0
LINE
8
0
10
122.360591
20
43.048055
11
121.720047
21
43.688599
0
LINE
8
0
10
121.720047
20
43.688599
11
120.845048
21
43.923054
0
LINE
8
0
10
120.845048
20
43.923054
11
119.970049
21
43.688599
0
LINE
8
0
10
119.970049
20
43.688599
11
119.329505
21
43.048055
0
LINE
8
0
10
119.329505
20
43.048055
11
119.095050
21
42.173056
0
LINE
8
0
10
119.095050
20
42.173056
11
119.329506
21
41.298057
0
LINE
8
0
10
119.329506
20
41.298057
11
119.970049
21
40.657514
0
LINE
8
0
10
119.970049
20
40.657514
11
120.845048
21
40.423058
0
LINE
8
0
10
120.845048
20
40.423058
11
121.720047
21
40.657514
0
LINE
8
0
10
121.720047
20
40.657514
11
122.360591
21
41.298057
0
LINE
8
0
10
122.360591
20
41.298057
11
122.595046
21
42.173056
0
LINE
8
0
10
122.595046
20
42.173056
11
122.595046
21
42.173056
0
LINE
8
0
10
134.385050
20
39.840699
11
134.150594
21
40.715698
0
LINE
8
0
10
134.150594
20
40.715698
11
133.510051
21
41.356241
0
LINE
8
0
10
133.510051
20
41.356241
11
132.635052
21
41.590697
0
LINE
8
0
10
132.635052
20
41.590697
11
131.760053
21
41.356241
0
LINE
8
0
10
131.760053
20
41.356241
11
131.119509
21
40.715698
0
LINE
8
0
10
131.119509
20
40.715698
11
130.885054
21
39.840699
0
LINE
8
0
10
130.885054
20
39.840699
11
131.119510
21
38.965700
0
LINE
8
0
10
131.119510
20
38.965700
11
131.760053
21
38.325156
0
LINE
8
0
10
131.760053
20
38.325156
11
132.635052
21
38.090701
0
LINE
8
0
10
132.635052
20
38.090701
11
133.510051
21
38.325156
0
LINE
8
0
10
133.510051
20
38.325156
11
134.150595
21
38.965700
0
LINE
8
0
10
134.150595
20
38.965700
11
134.385050
21
39.840699
0
LINE
8
0
10
134.385050
20
39.840699
11
134.385050
21
39.840699
0
LINE
8
0
10
125.146264
20
36.013868
11
125.008223
21
36.694468
0
LINE
8
0
10
125.008223
20
36.694468
11
124.633066
21
37.250140
0
LINE
8
0
10
124.633066
20
37.250140
11
124.077009
21
37.624725
0
LINE
8
0
10
124.077009
20
37.624725
11
123.396267
21
37.762066
0
LINE
8
0
10
123.396267
20
37.762066
11
122.715525
21
37.624725
0
LINE
8
0
10
122.715525
20
37.624725
11
122.159468
21
37.250140
0
LINE
8
0
10
122.159468
20
37.250140
11
121.784312
21
36.694468
0
LINE
8
0
10
121.784312
20
36.694468
11
121.646270
21
36.013868
0
LINE
8
0
10
121.646270
20
36.013868
11
121.784312
21
35.333268
0
LINE
8
0
10
121.784312
20
35.333268
11
122.159468
21
34.777597
0
LINE
8
0
10
122.159468
20
34.777597
11
122.715525
21
34.403012
0
LINE
8
0
10
122.715525
20
34.403012
11
123.396267
21
34.265671
0
LINE
8
0
10
123.396267
20
34.265671
11
124.077009
21
34.403012
0
LINE
8
0
10
124.077009
20
34.403012
11
124.633066
21
34.777597
0
LINE
8
0
10
124.633066
20
34.777597
11
125.008223
21
35.333268
0
LINE
8
0
10
125.008223
20
35.333268
11
125.146264
21
36.013868
0
LINE
8
0
10
125.146264
20
36.013868
11
125.146264
21
36.013868
0
LINE
8
0
10
126.731389
20
129.741433
11
126.593347
21
130.422033
0
LINE
8
0
10
126.593347
20
130.422033
11
126.218191
21
130.977704
0
LINE
8
0
10
126.218191
20
130.977704
11
125.662134
21
131.352289
0
LINE
8
0
10
125.662134
20
131.352289
11
124.981392
21
131.489631
0
LINE
8
0
10
124.981392
20
131.489631
11
124.300650
21
131.352289
0
LINE
8
0
10
124.300650
20
131.352289
11
123.744593
21
130.977704
0
LINE
8
0
10
123.744593
20
130.977704
11
123.369436
21
130.422033
0
LINE
8
0
10
123.369436
20
130.422033
11
123.231395
21
129.741433
0
LINE
8
0
10
123.231395
20
129.741433
11
123.369436
21
129.060833
0
LINE
8
0
10
123.369436
20
129.060833
11
123.744593
21
128.505162
0
LINE
8
0
10
123.744593
20
128.505162
11
124.300650
21
128.130577
0
LINE
8
0
10
124.300650
20
128.130577
11
124.981392
21
127.993235
0
LINE
8
0
10
124.981392
20
127.993235
11
125.662134
21
128.130577
0
LINE
8
0
10
125.662134
20
128.130577
11
126.218191
21
128.505162
0
LINE
8
0
10
126.218191
20
128.505162
11
126.593347
21
129.060833
0
LINE
8
0
10
126.593347
20
129.060833
11
126.731389
21
129.741433
0
LINE
8
0
10
126.731389
20
129.741433
11
126.731389
21
129.741433
0
LINE
8
0
10
129.282609
20
135.900624
11
129.048154
21
136.775623
0
LINE
8
0
10
129.048154
20
136.775623
11
128.407610
21
137.416166
0
LINE
8
0
10
128.407610
20
137.416166
11
127.532611
21
137.650621
0
LINE
8
0
10
127.532611
20
137.650621
11
126.657612
21
137.416166
0
LINE
8
0
10
126.657612
20
137.416166
11
126.017068
21
136.775623
0
LINE
8
0
10
126.017068
20
136.775623
11
125.782613
21
135.900624
0
LINE
8
0
10
125.782613
20
135.900624
11
126.017069
21
135.025625
0
LINE
8
0
10
126.017069
20
135.025625
11
126.657612
21
134.385081
0
LINE
8
0
10
126.657612
20
134.385081
11
127.532611
21
134.150626
0
LINE
8
0
10
127.532611
20
134.150626
11
128.407610
21
134.385081
0
LINE
8
0
10
128.407610
20
134.385081
11
129.048154
21
135.025625
0
LINE
8
0
10
129.048154
20
135.025625
11
129.282609
21
135.900624
0
LINE
8
0
10
129.282609
20
135.900624
11
129.282609
21
135.900624
0
LINE
8
0
10
120.043826
20
139.727452
11
119.809370
21
140.602450
0
LINE
8
0
10
119.809370
20
140.602450
11
119.168827
21
141.242994
0
LINE
8
0
10
119.168827
20
141.242994
11
118.293828
21
141.477449
0
LINE
8
0
10
118.293828
20
141.477449
11
117.418829
21
141.242994
0
LINE
8
0
10
117.418829
20
141.242994
11
116.778285
21
140.602450
0
LINE
8
0
10
116.778285
20
140.602450
11
116.543830
21
139.727452
0
LINE
8
0
10
116.543830
20
139.727452
11
116.778285
21
138.852453
0
LINE
8
0
10
116.778285
20
138.852453
11
117.418829
21
138.211909
0
LINE
8
0
10
117.418829
20
138.211909
11
118.293828
21
137.977454
0
LINE
8
0
10
118.293828
20
137.977454
11
119.168827
21
138.211909
0
LINE
8
0
10
119.168827
20
138.211909
11
119.809370
21
138.852453
0
LINE
8
0
10
119.809370
20
138.852453
11
120.043826
21
139.727452
0
LINE
8
0
10
120.043826
20
139.727452
11
120.043826
21
139.727452
0
LINE
8
0
10
117.492606
20
133.568264
11
117.354603
21
134.248906
0
LINE
8
0
10
117.354603
20
134.248906
11
116.979454
21
134.804621
0
LINE
8
0
10
116.979454
20
134.804621
11
116.423383
21
135.179240
0
LINE
8
0
10
116.423383
20
135.179240
11
115.742609
21
135.316595
0
LINE
8
0
10
115.742609
20
135.316595
11
115.061835
21
135.179240
0
LINE
8
0
10
115.061835
20
135.179240
11
114.505763
21
134.804621
0
LINE
8
0
10
114.505763
20
134.804621
11
114.130615
21
134.248906
0
LINE
8
0
10
114.130615
20
134.248906
11
113.992612
21
133.568264
0
LINE
8
0
10
113.992612
20
133.568264
11
114.130615
21
132.887621
0
LINE
8
0
10
114.130615
20
132.887621
11
114.505763
21
132.331906
0
LINE
8
0
10
114.505763
20
132.331906
11
115.061835
21
131.957287
0
LINE
8
0
10
115.061835
20
131.957287
11
115.742609
21
131.819933
0
LINE
8
0
10
115.742609
20
131.819933
11
116.423383
21
131.957287
0
LINE
8
0
10
116.423383
20
131.957287
11
116.979454
21
132.331906
0
LINE
8
0
10
116.979454
20
132.331906
11
117.354603
21
132.887621
0
LINE
8
0
10
117.354603
20
132.887621
11
117.492606
21
133.568264
0
LINE
8
0
10
117.492606
20
133.568264
11
117.492606
21
133.568264
0
LINE
8
0
10
122.595046
20
145.886642
11
122.360591
21
146.761641
0
LINE
8
0
10
122.360591
20
146.761641
11
121.720047
21
147.402185
0
LINE
8
0
10
121.720047
20
147.402185
11
120.845048
21
147.636640
0
LINE
8
0
10
120.845048
20
147.636640
11
119.970049
21
147.402185
0
LINE
8
0
10
119.970049
20
147.402185
11
119.329505
21
146.761641
0
LINE
8
0
10
119.329505
20
146.761641
11
119.095050
21
145.886642
0
LINE
8
0
10
119.095050
20
145.886642
11
119.329506
21
145.011643
0
LINE
8
0
10
119.329506
20
145.011643
11
119.970049
21
144.371100
0
LINE
8
0
10
119.970049
20
144.371100
11
120.845048
21
144.136644
0
LINE
8
0
10
120.845048
20
144.136644
11
121.720047
21
144.371100
0
LINE
8
0
10
121.720047
20
144.371100
11
122.360591
21
145.011643
0
LINE
8
0
10
122.360591
20
145.011643
11
122.595046
21
145.886642
0
LINE
8
0
10
122.595046
20
145.886642
11
122.595046
21
145.886642
0
LINE
8
0
10
131.833830
20
142.059812
11
131.599374
21
142.934810
0
LINE
8
0
10
131.599374
20
142.934810
11
130.958830
21
143.575354
0
LINE
8
0
10
130.958830
20
143.575354
11
130.083831
21
143.809809
0
LINE
8
0
10
130.083831
20
143.809809
11
129.208832
21
143.575354
0
LINE
8
0
10
129.208832
20
143.575354
11
128.568289
21
142.934810
0
LINE
8
0
10
128.568289
20
142.934810
11
128.333834
21
142.059812
0
LINE
8
0
10
128.333834
20
142.059812
11
128.568289
21
141.184813
0
LINE
8
0
10
128.568289
20
141.184813
11
129.208833
21
140.544269
0
LINE
8
0
10
129.208833
20
140.544269
11
130.083832
21
140.309814
0
LINE
8
0
10
130.083832
20
140.309814
11
130.958830
21
140.544269
0
LINE
8
0
10
130.958830
20
140.544269
11
131.599374
21
141.184813
0
LINE
8
0
10
131.599374
20
141.184813
11
131.833829
21
142.059812
0
LINE
8
0
10
131.833829
20
142.059812
11
131.833830
21
142.059812
0
LINE
8
0
10
125.146264
20
152.045830
11
125.008223
21
152.726430
0
LINE
8
0
10
125.008223
20
152.726430
11
124.633066
21
153.282102
0
LINE
8
0
10
124.633066
20
153.282102
11
124.077009
21
153.656687
0
LINE
8
0
10
124.077009
20
153.656687
11
123.396267
21
153.794028
0
LINE
8
0
10
123.396267
20
153.794028
11
122.715525
21
153.656687
0
LINE
8
0
10
122.715525
20
153.656687
11
122.159468
21
153.282102
0
LINE
8
0
10
122.159468
20
153.282102
11
121.784312
21
152.726430
0
LINE
8
0
10
121.784312
20
152.726430
11
121.646270
21
152.045830
0
LINE
8
0
10
121.646270
20
152.045830
11
121.784312
21
151.365230
0
LINE
8
0
10
121.784312
20
151.365230
11
122.159468
21
150.809559
0
LINE
8
0
10
122.159468
20
150.809559
11
122.715525
21
150.434974
0
LINE
8
0
10
122.715525
20
150.434974
11
123.396267
21
150.297633
0
LINE
8
0
10
123.396267
20
150.297633
11
124.077009
21
150.434974
0
LINE
8
0
10
124.077009
20
150.434974
11
124.633066
21
150.809559
0
LINE
8
0
10
124.633066
20
150.809559
11
125.008223
21
151.365230
0
LINE
8
0
10
125.008223
20
151.365230
11
125.146264
21
152.045830
0
LINE
8
0
10
125.146264
20
152.045830
11
125.146264
21
152.045830
0
LINE
8
0
10
134.385050
20
148.219000
11
134.150594
21
149.093998
0
LINE
8
0
10
134.150594
20
149.093998
11
133.510051
21
149.734542
0
LINE
8
0
10
133.510051
20
149.734542
11
132.635052
21
149.968997
0
LINE
8
0
10
132.635052
20
149.968997
11
131.760053
21
149.734542
0
LINE
8
0
10
131.760053
20
149.734542
11
131.119509
21
149.093998
0
LINE
8
0
10
131.119509
20
149.093998
11
130.885054
21
148.219000
0
LINE
8
0
10
130.885054
20
148.219000
11
131.119510
21
147.344001
0
LINE
8
0
10
131.119510
20
147.344001
11
131.760053
21
146.703457
0
LINE
8
0
10
131.760053
20
146.703457
11
132.635052
21
146.469002
0
LINE
8
0
10
132.635052
20
146.469002
11
133.510051
21
146.703457
0
LINE
8
0
10
133.510051
20
146.703457
11
134.150595
21
147.344001
0
LINE
8
0
10
134.150595
20
147.344001
11
134.385050
21
148.219000
0
LINE
8
0
10
134.385050
20
148.219000
11
134.385050
21
148.219000
 0 
ENDSEC
 0 
EOF